© Copyright Gürhan Çağın 2014 © All Rights reserved.

Paylaş

Herhangibir parça çalmaya başlamadan önce, germe ve esnetme egzersizleri yapmanın önemini bir önceki makalede anlatmıştık. Yine aynı şekilde gerçek çalışmaya geçmeden önce, parmaklarımızı ısıtmak ve açmak için birkaç parmak ekzersizi yapmak çok iyi olacaktir, bunun için aşağıdaki egzersizler gündelik olarak çalışılabilir.

 

Egzersizler herzaman yavaş başlayıp hızlandırılmalıdır, ve metronom kullanmak ritim kulağının gelişimi için çok önemlidir. Başlangıç temposu olarak 60bpm önerilir. Burada amaç ısınma olduğundan, çok zorlamamak ve zor riff'lere ısınmadan geçmemek gerekir.

Tüm egzersizleri 1. perdeden başlayarak, 12. perdeye kadar, her iniş ve çıkışta 1 perde yana kayarak yapın. Eğer 1. perdeden başlamak, perdelerin genişliği yüzünden zor gelirse, 12. perdeden başlayarak 1. perdeye doğru ilerleyebilirsiniz.

 

 

Not: Ağrı olması durumunda, kesinlikle zorlamayın, ellerinizi dinlendirin, ve el pozisyonlarınızda bir hata varmı, yeterince ısınmadın mı çalışıyorsunuz dikkat edin.

 

Egzersiz 1: 

G||----------------------|----------------------|----------------------|--1----2----3----4----|
D||----------------------|----------------------|--1----2----3----4----|----------------------|
A||----------------------|--1----2----3----4----|----------------------|----------------------|
E||--1----2----3----4----|----------------------|----------------------|----------------------|


G||--5----4----3----2----|----------------------|----------------------|----------------------|
D||----------------------|--5----4----3----2----|----------------------|----------------------|
A||----------------------|----------------------|--5----4----3----2----|----------------------|
E||----------------------|----------------------|----------------------|--5----4----3----2----|

 

EGZERSIZ 2: 

G||----------------------|----------------------|-------2---------4----|
D||----------------------|-------2---------4----|--1---------3---------|
A||-------2---------4----|--1---------3---------|----------------------|
E||--1---------3---------|----------------------|----------------------|


G||--2---------4---------|----------------------|----------------------|
D||-------3---------5----|--2---------4---------|----------------------|
A||----------------------|-------3---------5----|--2---------4---------|
E||----------------------|----------------------|-------3---------5----|

 

EGZERSIZ 3: 

G||-----------------4----|--3----2----1----|-----------------|-----------------|
D||------------3---------|-----------------|--2--------------|-----------------|
A||-------2--------------|-----------------|-------3---------|-----------------|
E||--1-------------------|-----------------|------------4----|--3----2----1----|


G||-----------------5----|--4----3----2----|-----------------|-----------------|
D||------------4---------|-----------------|--3--------------|-----------------|
A||-------3--------------|-----------------|-------4---------|-----------------|
E||--2-------------------|-----------------|------------5----|--4----3----2----|

 

 

EGZERSIZ 4:

G||-----------------4----|-----------------5----|-----------------6----|-----------------7----|
D||------------3---------|------------4---------|------------5---------|------------6---------|
A||-------2--------------|-------3--------------|-------4--------------|-------5--------------|
E||--1-------------------|--2-------------------|--3-------------------|--4-------------------|

 

 

EGZERSIZ 5:

G||----------------------|----------------------|----------------------|--2----3----4----1----|
D||----------------------|----------------------|--2----3----4----1----|----------------------|
A||----------------------|--2----3----4----1----|----------------------|----------------------|
E||--2----3----4----1----|----------------------|----------------------|----------------------|

  

G||--3----4----5----2----|----------------------|----------------------|----------------------|
D||----------------------|--3----4----5----2----|----------------------|----------------------|
A||----------------------|----------------------|--3----4----5----2----|----------------------|
E||----------------------|----------------------|----------------------|--3----4----5----2----|

 

 

EGZERSIZ 6:

G||----------------------|----------------------|----------------------|----------------------|
D||-------3----1----3----|-------4----2----4----|-------5----3----5----|-------6----4----6----|
A||----------------------|----------------------|----------------------|----------------------|
E||--1-------------------|--2-------------------|--3-------------------|--4-------------------|

 

EGZERSIZ 7:

G||--4-------------------|-----------------|------------1----|--2----3----4----|
D||-------3--------------|-----------------|-------2---------|-----------------|
A||------------2---------|-----------------|--3--------------|-----------------|
E||-----------------1----|--2----3----4----|-----------------|-----------------|



G||--5-------------------|-----------------|------------2----|--3----4----5----|
D||-------4--------------|-----------------|-------3---------|-----------------|
A||------------3---------|-----------------|--4--------------|-----------------|
E||-----------------2----|--3----4----5----|-----------------|-----------------|

 

BassFitnessAnExercisingHandbook Small Şuana kadar gördüğüm en kapsamlı egzersiz kitabı, Bass Fitness - An Exercising Handbook 

 Bu kitapta, yazar Josquin des Pres, sol elde oluşturulabilecek tüm kombinasyonları tek kitapda toplamış. Kitap içerisinde 10 konu altında 200 kadar çalışma var. Ne yazık ki kitap ülkemizde satılmıyor.

 Bölümler:

 1. Klavye üzerinde hareket

 2. Bölüm 1. deki egzersizler üzerine variasyonlar.

 3. Parmak yönlerini değiştirerek

 4. Bölüm 3. deki egzersizler üzerine variasyonlar.

5. Perdeleri atlayarak

6. Perdeleri atlayarak ve parmak yönlerini değiştirerek

7. Teller arasında geçiş

8. Teller arasında ileri ve geri geçiş

9. Parmak ayrıştırma, 1 numaralı parmak üzerine odaklanmış

10. Parmak ayrıştırma, 4 numaralı parmak üzerine odaklanmış

 

Gürhan Çağın

Makaleler

Arama

En Son Makaleler

En Son Haberler

Ziyaretçi Bilgisi

0680776
Bugün
Dün
Bu Hafta
Geçen Hafta
Bu Ay
Geçen Ay
Tüm Günler
1155
2075
13234
13234
31746
57793
680776

Bugün Tahmini
1560

7.70%
7.28%
7.11%
1.89%
0.18%
75.84%

69 guests

IP Adresiniz:54.147.40.153
Joomla templates by Joomlashine